RSS

il divo ft celine dion ~ i believe in you guitar chords

Em C G D
e|---------0----------0-----------3-----------2------------------------------|
B|-------0--0-------1---1-------0---0-------3---3----------------------------|
G|-----0------0---0-------0---0-------0---2-------2--------------------------|
D|--------------------------------------0------------------------------------|
A|--------------3------------------------------------------------------------|
E|---0----------------------3------------------------------------------------|


A E F#m D
e|-------0-----------0-----------2-----------2-------------------------------|
B|-----2---2-------0---0-------2---2-------3---3-----------------------------|
G|---2-------2---1-------1---2-------2---2-------2---------------------------|
D|-------------------------0-----------0-------------------------------------|
A|-0-------------------------------------------------------------------------|
E|-------------0-------------------------------------------------------------|

Intro: Em C G D Em C G D

Verse 2:
Em C G D
Lonely, the path you have chosen
Em C G D
A restless road, no turning back
Em C G D
One day you will find your light again
Em C G D A
Don't you know, don't let go, be strong


CHORUS:
A E
Follow your heart
F#m D
Let your love lead through the darkness
A E
Back to a place you once knew
F#m D A
I believe I believe I believe in you
E
Follow your dreams
F#m D
Be yourself, an angel of kindness
A E
There's nothing that you cannot do
F#m D A
I believe I believe I believe in you


Verse 2:
F#m D A E
Tout seul, tu t'en iras tout seul
F#m D A E
Coeur ouvert, a l'univers
F#m D A E
Poursuis ta quête sans regarder derrière
F#m D A E A
N'attends pas, que le jour se lève


CHORUS (French):
E
Suis ton étoile
F#m D
Va jusqu'où ton rêve t'emporte
A E
Un jour tu le toucheras
F#m D A
Si tu crois si tu crois si tu crois en toi
E
Suis ta lumière
F#m D
N'éteins pas la flamme que tu portes
A E
Au fonds de toi souviens-toi
F#m D A
Que je crois que je crois que je crois en toi

F#m D A E F#m D A E


BRIDGE:
A D
Someday I'll find you
F#m E
Someday you'll find me too
A D
And when I hold you close
E A
I'll know that it's true


CHORUS:
E
Follow your heart
F#m D
Let your love lead through the darkness
A E
Back to a place you once knew
F#m D A
I believe I believe I believe in you
E
Follow your dreams
F#m D
Be yourself, an angel of kindness
A E
There's nothing that you cannot do
F#m D A E
I believe I believe I believe in you


F#m D A
I believe I believe I believe in you

F#m D A E

D A
I believe in you

  • Digg
  • Del.icio.us
  • StumbleUpon
  • Reddit
  • RSS

0 comments:

Post a Comment